ISO-10303-21;
HEADER;
/* Generated by software containing ST-Developer
 * from STEP Tools, Inc. (www.steptools.com) 
 */
/* OPTION: using custom renumber hook */

FILE_DESCRIPTION(
/* description */ ('STEP AP242',
'CAx-IF Rec.Pracs.---Representation and Presentation of Product Manufa
cturing Information (PMI)---4.0---2014-10-13',
'CAx-IF Rec.Pracs.---3D Tessellated Geometry---0.4---2014-09-14','2;1'),

/* implementation_level */ '2;1');

FILE_NAME(
/* name */ '6553c689822a7c22021c9a56',
/* time_stamp */ '2023-11-14T19:12:20Z',
/* author */ (''),
/* organization */ (''),
/* preprocessor_version */ 'ST-DEVELOPER v19.4',
/* originating_system */ '  ',
/* authorisation */ '  ');

FILE_SCHEMA (('AP242_MANAGED_MODEL_BASED_3D_ENGINEERING_MIM_LF { 1 0 10303 442 1 1 4 }'));
ENDSEC;

DATA;
#10=SHAPE_REPRESENTATION_RELATIONSHIP('','',#237,#11);
#11=ADVANCED_BREP_SHAPE_REPRESENTATION('',(#235),#379);
#12=CYLINDRICAL_SURFACE('',#248,0.002);
#13=CYLINDRICAL_SURFACE('',#254,0.00025);
#14=CIRCLE('',#242,0.00025);
#15=CIRCLE('',#246,0.002);
#16=CIRCLE('',#249,0.002);
#17=CIRCLE('',#253,0.00025);
#18=ORIENTED_EDGE('',*,*,#78,.T.);
#19=ORIENTED_EDGE('',*,*,#79,.F.);
#20=ORIENTED_EDGE('',*,*,#80,.F.);
#21=ORIENTED_EDGE('',*,*,#81,.T.);
#22=ORIENTED_EDGE('',*,*,#82,.F.);
#23=ORIENTED_EDGE('',*,*,#83,.T.);
#24=ORIENTED_EDGE('',*,*,#84,.T.);
#25=ORIENTED_EDGE('',*,*,#85,.T.);
#26=ORIENTED_EDGE('',*,*,#86,.F.);
#27=ORIENTED_EDGE('',*,*,#87,.T.);
#28=ORIENTED_EDGE('',*,*,#88,.F.);
#29=ORIENTED_EDGE('',*,*,#89,.T.);
#30=ORIENTED_EDGE('',*,*,#78,.F.);
#31=ORIENTED_EDGE('',*,*,#90,.F.);
#32=ORIENTED_EDGE('',*,*,#84,.F.);
#33=ORIENTED_EDGE('',*,*,#89,.F.);
#34=ORIENTED_EDGE('',*,*,#91,.F.);
#35=ORIENTED_EDGE('',*,*,#92,.T.);
#36=ORIENTED_EDGE('',*,*,#79,.T.);
#37=ORIENTED_EDGE('',*,*,#93,.T.);
#38=ORIENTED_EDGE('',*,*,#80,.T.);
#39=ORIENTED_EDGE('',*,*,#92,.F.);
#40=ORIENTED_EDGE('',*,*,#94,.F.);
#41=ORIENTED_EDGE('',*,*,#95,.F.);
#42=ORIENTED_EDGE('',*,*,#82,.T.);
#43=ORIENTED_EDGE('',*,*,#96,.F.);
#44=ORIENTED_EDGE('',*,*,#97,.F.);
#45=ORIENTED_EDGE('',*,*,#88,.T.);
#46=ORIENTED_EDGE('',*,*,#98,.T.);
#47=ORIENTED_EDGE('',*,*,#99,.F.);
#48=ORIENTED_EDGE('',*,*,#100,.F.);
#49=ORIENTED_EDGE('',*,*,#94,.T.);
#50=ORIENTED_EDGE('',*,*,#91,.T.);
#51=ORIENTED_EDGE('',*,*,#101,.F.);
#52=ORIENTED_EDGE('',*,*,#102,.T.);
#53=ORIENTED_EDGE('',*,*,#103,.T.);
#54=ORIENTED_EDGE('',*,*,#97,.T.);
#55=ORIENTED_EDGE('',*,*,#104,.T.);
#56=ORIENTED_EDGE('',*,*,#105,.T.);
#57=ORIENTED_EDGE('',*,*,#86,.T.);
#58=ORIENTED_EDGE('',*,*,#83,.F.);
#59=ORIENTED_EDGE('',*,*,#95,.T.);
#60=ORIENTED_EDGE('',*,*,#103,.F.);
#61=ORIENTED_EDGE('',*,*,#100,.T.);
#62=ORIENTED_EDGE('',*,*,#106,.T.);
#63=ORIENTED_EDGE('',*,*,#101,.T.);
#64=ORIENTED_EDGE('',*,*,#96,.T.);
#65=ORIENTED_EDGE('',*,*,#85,.F.);
#66=ORIENTED_EDGE('',*,*,#90,.T.);
#67=ORIENTED_EDGE('',*,*,#81,.F.);
#68=ORIENTED_EDGE('',*,*,#93,.F.);
#69=ORIENTED_EDGE('',*,*,#99,.T.);
#70=ORIENTED_EDGE('',*,*,#107,.T.);
#71=ORIENTED_EDGE('',*,*,#104,.F.);
#72=ORIENTED_EDGE('',*,*,#102,.F.);
#73=ORIENTED_EDGE('',*,*,#106,.F.);
#74=ORIENTED_EDGE('',*,*,#87,.F.);
#75=ORIENTED_EDGE('',*,*,#105,.F.);
#76=ORIENTED_EDGE('',*,*,#107,.F.);
#77=ORIENTED_EDGE('',*,*,#98,.F.);
#78=EDGE_CURVE('',#108,#109,#128,.T.);
#79=EDGE_CURVE('',#110,#109,#129,.T.);
#80=EDGE_CURVE('',#111,#110,#130,.T.);
#81=EDGE_CURVE('',#111,#108,#131,.T.);
#82=EDGE_CURVE('',#112,#113,#132,.T.);
#83=EDGE_CURVE('',#112,#114,#133,.T.);
#84=EDGE_CURVE('',#114,#115,#134,.T.);
#85=EDGE_CURVE('',#115,#113,#135,.T.);
#86=EDGE_CURVE('',#116,#114,#136,.T.);
#87=EDGE_CURVE('',#116,#117,#14,.T.);
#88=EDGE_CURVE('',#118,#117,#137,.T.);
#89=EDGE_CURVE('',#118,#109,#138,.T.);
#90=EDGE_CURVE('',#115,#108,#139,.T.);
#91=EDGE_CURVE('',#119,#118,#140,.T.);
#92=EDGE_CURVE('',#119,#110,#141,.T.);
#93=EDGE_CURVE('',#120,#111,#142,.T.);
#94=EDGE_CURVE('',#120,#119,#143,.T.);
#95=EDGE_CURVE('',#112,#121,#144,.T.);
#96=EDGE_CURVE('',#122,#113,#145,.T.);
#97=EDGE_CURVE('',#121,#122,#15,.T.);
#98=EDGE_CURVE('',#117,#123,#146,.F.);
#99=EDGE_CURVE('',#124,#123,#147,.T.);
#100=EDGE_CURVE('',#120,#124,#148,.T.);
#101=EDGE_CURVE('',#125,#122,#149,.T.);
#102=EDGE_CURVE('',#125,#126,#16,.T.);
#103=EDGE_CURVE('',#126,#121,#150,.T.);
#104=EDGE_CURVE('',#126,#127,#151,.T.);
#105=EDGE_CURVE('',#127,#116,#152,.F.);
#106=EDGE_CURVE('',#124,#125,#153,.T.);
#107=EDGE_CURVE('',#123,#127,#17,.F.);
#108=VERTEX_POINT('',#318);
#109=VERTEX_POINT('',#319);
#110=VERTEX_POINT('',#321);
#111=VERTEX_POINT('',#323);
#112=VERTEX_POINT('',#327);
#113=VERTEX_POINT('',#328);
#114=VERTEX_POINT('',#330);
#115=VERTEX_POINT('',#332);
#116=VERTEX_POINT('',#336);
#117=VERTEX_POINT('',#338);
#118=VERTEX_POINT('',#340);
#119=VERTEX_POINT('',#345);
#120=VERTEX_POINT('',#349);
#121=VERTEX_POINT('',#353);
#122=VERTEX_POINT('',#355);
#123=VERTEX_POINT('',#359);
#124=VERTEX_POINT('',#361);
#125=VERTEX_POINT('',#365);
#126=VERTEX_POINT('',#367);
#127=VERTEX_POINT('',#371);
#128=LINE('',#317,#154);
#129=LINE('',#320,#155);
#130=LINE('',#322,#156);
#131=LINE('',#324,#157);
#132=LINE('',#326,#158);
#133=LINE('',#329,#159);
#134=LINE('',#331,#160);
#135=LINE('',#333,#161);
#136=LINE('',#335,#162);
#137=LINE('',#339,#163);
#138=LINE('',#341,#164);
#139=LINE('',#342,#165);
#140=LINE('',#344,#166);
#141=LINE('',#346,#167);
#142=LINE('',#348,#168);
#143=LINE('',#350,#169);
#144=LINE('',#352,#170);
#145=LINE('',#354,#171);
#146=LINE('',#358,#172);
#147=LINE('',#360,#173);
#148=LINE('',#362,#174);
#149=LINE('',#364,#175);
#150=LINE('',#368,#176);
#151=LINE('',#370,#177);
#152=LINE('',#372,#178);
#153=LINE('',#374,#179);
#154=VECTOR('',#259,1.);
#155=VECTOR('',#260,1.);
#156=VECTOR('',#261,1.);
#157=VECTOR('',#262,1.);
#158=VECTOR('',#265,1.);
#159=VECTOR('',#266,1.);
#160=VECTOR('',#267,1.);
#161=VECTOR('',#268,1.);
#162=VECTOR('',#271,1.);
#163=VECTOR('',#274,1.);
#164=VECTOR('',#275,1.);
#165=VECTOR('',#276,1.);
#166=VECTOR('',#279,1.);
#167=VECTOR('',#280,1.);
#168=VECTOR('',#283,1.);
#169=VECTOR('',#284,1.);
#170=VECTOR('',#287,1.);
#171=VECTOR('',#288,1.);
#172=VECTOR('',#293,1.);
#173=VECTOR('',#294,1.);
#174=VECTOR('',#295,1.);
#175=VECTOR('',#298,1.);
#176=VECTOR('',#301,1.);
#177=VECTOR('',#304,1.);
#178=VECTOR('',#305,1.);
#179=VECTOR('',#308,1.);
#180=EDGE_LOOP('',(#18,#19,#20,#21));
#181=EDGE_LOOP('',(#22,#23,#24,#25));
#182=EDGE_LOOP('',(#26,#27,#28,#29,#30,#31,#32));
#183=EDGE_LOOP('',(#33,#34,#35,#36));
#184=EDGE_LOOP('',(#37,#38,#39,#40));
#185=EDGE_LOOP('',(#41,#42,#43,#44));
#186=EDGE_LOOP('',(#45,#46,#47,#48,#49,#50));
#187=EDGE_LOOP('',(#51,#52,#53,#54));
#188=EDGE_LOOP('',(#55,#56,#57,#58,#59,#60));
#189=EDGE_LOOP('',(#61,#62,#63,#64,#65,#66,#67,#68));
#190=EDGE_LOOP('',(#69,#70,#71,#72,#73));
#191=EDGE_LOOP('',(#74,#75,#76,#77));
#192=FACE_BOUND('',#180,.T.);
#193=FACE_BOUND('',#181,.T.);
#194=FACE_BOUND('',#182,.T.);
#195=FACE_BOUND('',#183,.T.);
#196=FACE_BOUND('',#184,.T.);
#197=FACE_BOUND('',#185,.T.);
#198=FACE_BOUND('',#186,.T.);
#199=FACE_BOUND('',#187,.T.);
#200=FACE_BOUND('',#188,.T.);
#201=FACE_BOUND('',#189,.T.);
#202=FACE_BOUND('',#190,.T.);
#203=FACE_BOUND('',#191,.T.);
#204=PLANE('',#239);
#205=PLANE('',#240);
#206=PLANE('',#241);
#207=PLANE('',#243);
#208=PLANE('',#244);
#209=PLANE('',#245);
#210=PLANE('',#247);
#211=PLANE('',#250);
#212=PLANE('',#251);
#213=PLANE('',#252);
#214=ADVANCED_FACE('',(#192),#204,.F.);
#215=ADVANCED_FACE('',(#193),#205,.F.);
#216=ADVANCED_FACE('',(#194),#206,.T.);
#217=ADVANCED_FACE('',(#195),#207,.T.);
#218=ADVANCED_FACE('',(#196),#208,.T.);
#219=ADVANCED_FACE('',(#197),#209,.T.);
#220=ADVANCED_FACE('',(#198),#210,.T.);
#221=ADVANCED_FACE('',(#199),#12,.T.);
#222=ADVANCED_FACE('',(#200),#211,.F.);
#223=ADVANCED_FACE('',(#201),#212,.T.);
#224=ADVANCED_FACE('',(#202),#213,.F.);
#225=ADVANCED_FACE('',(#203),#13,.T.);
#226=CLOSED_SHELL('',(#214,#215,#216,#217,#218,#219,#220,#221,#222,#223,
#224,#225));
#227=STYLED_ITEM('',(#228),#235);
#228=PRESENTATION_STYLE_ASSIGNMENT((#229));
#229=SURFACE_STYLE_USAGE(.BOTH.,#230);
#230=SURFACE_SIDE_STYLE('',(#231));
#231=SURFACE_STYLE_FILL_AREA(#232);
#232=FILL_AREA_STYLE('',(#233));
#233=FILL_AREA_STYLE_COLOUR('',#234);
#234=COLOUR_RGB('',0.76078431372549,0.83921568627451,0.925490196078431);
#235=MANIFOLD_SOLID_BREP('Side 2',#226);
#236=SHAPE_DEFINITION_REPRESENTATION(#384,#237);
#237=SHAPE_REPRESENTATION('Side 2',(#238),#379);
#238=AXIS2_PLACEMENT_3D('',#315,#255,#256);
#239=AXIS2_PLACEMENT_3D('',#316,#257,#258);
#240=AXIS2_PLACEMENT_3D('',#325,#263,#264);
#241=AXIS2_PLACEMENT_3D('',#334,#269,#270);
#242=AXIS2_PLACEMENT_3D('',#337,#272,#273);
#243=AXIS2_PLACEMENT_3D('',#343,#277,#278);
#244=AXIS2_PLACEMENT_3D('',#347,#281,#282);
#245=AXIS2_PLACEMENT_3D('',#351,#285,#286);
#246=AXIS2_PLACEMENT_3D('',#356,#289,#290);
#247=AXIS2_PLACEMENT_3D('',#357,#291,#292);
#248=AXIS2_PLACEMENT_3D('',#363,#296,#297);
#249=AXIS2_PLACEMENT_3D('',#366,#299,#300);
#250=AXIS2_PLACEMENT_3D('',#369,#302,#303);
#251=AXIS2_PLACEMENT_3D('',#373,#306,#307);
#252=AXIS2_PLACEMENT_3D('',#375,#309,#310);
#253=AXIS2_PLACEMENT_3D('',#376,#311,#312);
#254=AXIS2_PLACEMENT_3D('',#377,#313,#314);
#255=DIRECTION('',(0.,0.,1.));
#256=DIRECTION('',(1.,0.,0.));
#257=DIRECTION('',(0.,-1.,0.));
#258=DIRECTION('',(0.,0.,-1.));
#259=DIRECTION('',(1.,0.,0.));
#260=DIRECTION('',(0.,0.,1.));
#261=DIRECTION('',(1.,0.,0.));
#262=DIRECTION('',(0.,0.,1.));
#263=DIRECTION('',(1.15648231731787E-16,-1.,0.));
#264=DIRECTION('',(1.,1.15648231731787E-16,0.));
#265=DIRECTION('',(-1.,-1.15648231731787E-16,0.));
#266=DIRECTION('',(0.,0.,-1.));
#267=DIRECTION('',(-1.,-1.15648231731787E-16,0.));
#268=DIRECTION('',(0.,0.,1.));
#269=DIRECTION('',(0.,0.,1.));
#270=DIRECTION('',(1.,0.,0.));
#271=DIRECTION('',(0.,-1.,0.));
#272=DIRECTION('',(0.,0.,1.));
#273=DIRECTION('',(1.,0.,0.));
#274=DIRECTION('',(1.,-2.89120579329468E-16,0.));
#275=DIRECTION('',(-1.5770213417971E-16,-1.,0.));
#276=DIRECTION('',(1.19262238973405E-16,1.,0.));
#277=DIRECTION('',(-1.,1.5770213417971E-16,0.));
#278=DIRECTION('',(-1.5770213417971E-16,-1.,0.));
#279=DIRECTION('',(0.,0.,1.));
#280=DIRECTION('',(-1.5770213417971E-16,-1.,0.));
#281=DIRECTION('',(0.,0.,1.));
#282=DIRECTION('',(1.,0.,0.));
#283=DIRECTION('',(0.,-1.,0.));
#284=DIRECTION('',(1.,0.,0.));
#285=DIRECTION('',(0.,0.,1.));
#286=DIRECTION('',(1.,0.,0.));
#287=DIRECTION('',(0.,-1.,0.));
#288=DIRECTION('',(1.21027219254196E-16,1.,0.));
#289=DIRECTION('',(0.,0.,-1.));
#290=DIRECTION('',(1.,0.,0.));
#291=DIRECTION('',(2.89120579329468E-16,1.,0.));
#292=DIRECTION('',(-1.,2.89120579329468E-16,0.));
#293=DIRECTION('',(0.,0.,1.));
#294=DIRECTION('',(1.,0.,0.));
#295=DIRECTION('',(0.,0.,-1.));
#296=DIRECTION('',(0.,0.,1.));
#297=DIRECTION('',(1.,0.,0.));
#298=DIRECTION('',(0.,0.,1.));
#299=DIRECTION('',(0.,0.,1.));
#300=DIRECTION('',(1.,0.,0.));
#301=DIRECTION('',(0.,0.,1.));
#302=DIRECTION('',(-1.,0.,0.));
#303=DIRECTION('',(0.,0.,1.));
#304=DIRECTION('',(0.,1.,0.));
#305=DIRECTION('',(0.,0.,-1.));
#306=DIRECTION('',(-1.,1.82145964977565E-16,0.));
#307=DIRECTION('',(-1.82145964977565E-16,-1.,0.));
#308=DIRECTION('',(-1.82145964977565E-16,-1.,0.));
#309=DIRECTION('',(0.,0.,1.));
#310=DIRECTION('',(1.,0.,0.));
#311=DIRECTION('',(0.,0.,1.));
#312=DIRECTION('',(1.,0.,0.));
#313=DIRECTION('',(0.,0.,1.));
#314=DIRECTION('',(1.,0.,0.));
#315=CARTESIAN_POINT('',(0.,0.,0.));
#316=CARTESIAN_POINT('',(0.0015,-0.00775,0.0425));
#317=CARTESIAN_POINT('',(0.0015,-0.00775,0.05));
#318=CARTESIAN_POINT('',(0.00075,-0.00775,0.05));
#319=CARTESIAN_POINT('',(0.00225,-0.00775,0.05));
#320=CARTESIAN_POINT('',(0.00225,-0.00775,0.0425));
#321=CARTESIAN_POINT('',(0.00225,-0.00775,0.0425));
#322=CARTESIAN_POINT('',(0.0015,-0.00775,0.0425));
#323=CARTESIAN_POINT('',(0.00075,-0.00775,0.0425));
#324=CARTESIAN_POINT('',(0.00075,-0.00775,0.0425));
#325=CARTESIAN_POINT('',(-1.7347234759768E-18,-0.015,0.0525));
#326=CARTESIAN_POINT('',(-1.7347234759768E-18,-0.015,0.0525));
#327=CARTESIAN_POINT('',(0.00375,-0.015,0.0525));
#328=CARTESIAN_POINT('',(0.00075,-0.015,0.0525));
#329=CARTESIAN_POINT('',(0.00375,-0.015,0.0525));
#330=CARTESIAN_POINT('',(0.00375,-0.015,0.05));
#331=CARTESIAN_POINT('',(-1.7347234759768E-18,-0.015,0.05));
#332=CARTESIAN_POINT('',(0.00075,-0.015,0.05));
#333=CARTESIAN_POINT('',(0.00075,-0.015,0.0525));
#334=CARTESIAN_POINT('',(0.,0.,0.05));
#335=CARTESIAN_POINT('',(0.00375,0.01,0.05));
#336=CARTESIAN_POINT('',(0.00375,-0.00525,0.05));
#337=CARTESIAN_POINT('',(0.0035,-0.00525,0.05));
#338=CARTESIAN_POINT('',(0.0035,-0.005,0.05));
#339=CARTESIAN_POINT('',(0.00225,-0.005,0.05));
#340=CARTESIAN_POINT('',(0.00225,-0.005,0.05));
#341=CARTESIAN_POINT('',(0.00225,-0.006375,0.05));
#342=CARTESIAN_POINT('',(0.000750000000000009,-0.01,0.05));
#343=CARTESIAN_POINT('',(0.00225,-0.006375,0.0425));
#344=CARTESIAN_POINT('',(0.00225,-0.005,0.0425));
#345=CARTESIAN_POINT('',(0.00225,-0.005,0.0425));
#346=CARTESIAN_POINT('',(0.00225,-0.006375,0.0425));
#347=CARTESIAN_POINT('',(0.00225,0.003625,0.0425));
#348=CARTESIAN_POINT('',(0.00075,-0.006375,0.0425));
#349=CARTESIAN_POINT('',(0.00075,-0.005,0.0425));
#350=CARTESIAN_POINT('',(0.0015,-0.005,0.0425));
#351=CARTESIAN_POINT('',(-0.001,0.,0.0525));
#352=CARTESIAN_POINT('',(0.00375,-0.010375,0.0525));
#353=CARTESIAN_POINT('',(0.00375,-0.01575,0.0525));
#354=CARTESIAN_POINT('',(0.000750000000000009,-0.010375,0.0525));
#355=CARTESIAN_POINT('',(0.00075,-0.01575,0.0525));
#356=CARTESIAN_POINT('',(0.00225,-0.0170728756555323,0.0525));
#357=CARTESIAN_POINT('',(0.00225,-0.005,0.05));
#358=CARTESIAN_POINT('',(0.0035,-0.005,0.05));
#359=CARTESIAN_POINT('',(0.0035,-0.005,0.00505));
#360=CARTESIAN_POINT('',(0.00225,-0.005,0.00505));
#361=CARTESIAN_POINT('',(0.00075000000000001,-0.005,0.00505));
#362=CARTESIAN_POINT('',(0.00075,-0.005,0.05));
#363=CARTESIAN_POINT('',(0.00225,-0.0170728756555323,0.004998));
#364=CARTESIAN_POINT('',(0.00075,-0.01575,0.004998));
#365=CARTESIAN_POINT('',(0.00075,-0.01575,0.00505));
#366=CARTESIAN_POINT('',(0.00225,-0.0170728756555323,0.00505));
#367=CARTESIAN_POINT('',(0.00375,-0.01575,0.00505));
#368=CARTESIAN_POINT('',(0.00375,-0.01575,0.004998));
#369=CARTESIAN_POINT('',(0.00375,0.01,0.05));
#370=CARTESIAN_POINT('',(0.00375,-0.010375,0.00505));
#371=CARTESIAN_POINT('',(0.00375,-0.00525,0.00505));
#372=CARTESIAN_POINT('',(0.00375,-0.00525,0.05));
#373=CARTESIAN_POINT('',(0.00075,-2.60208521396521E-18,0.005));
#374=CARTESIAN_POINT('',(0.00075,-2.60208521396521E-18,0.00505));
#375=CARTESIAN_POINT('',(-0.00375,0.,0.00505));
#376=CARTESIAN_POINT('',(0.0035,-0.00525,0.00505));
#377=CARTESIAN_POINT('',(0.0035,-0.00525,0.05));
#378=MECHANICAL_DESIGN_GEOMETRIC_PRESENTATION_REPRESENTATION('',(#227),
#379);
#379=(
GEOMETRIC_REPRESENTATION_CONTEXT(3)
GLOBAL_UNCERTAINTY_ASSIGNED_CONTEXT((#380))
GLOBAL_UNIT_ASSIGNED_CONTEXT((#383,#382,#381))
REPRESENTATION_CONTEXT('Side 2','TOP_LEVEL_ASSEMBLY_PART')
);
#380=UNCERTAINTY_MEASURE_WITH_UNIT(LENGTH_MEASURE(5.E-6),#383,
'DISTANCE_ACCURACY_VALUE','Maximum Tolerance applied to model');
#381=(
NAMED_UNIT(*)
SI_UNIT($,.STERADIAN.)
SOLID_ANGLE_UNIT()
);
#382=(
NAMED_UNIT(*)
PLANE_ANGLE_UNIT()
SI_UNIT($,.RADIAN.)
);
#383=(
LENGTH_UNIT()
NAMED_UNIT(*)
SI_UNIT($,.METRE.)
);
#384=PRODUCT_DEFINITION_SHAPE('','',#385);
#385=PRODUCT_DEFINITION('','',#387,#386);
#386=PRODUCT_DEFINITION_CONTEXT('',#393,'design');
#387=PRODUCT_DEFINITION_FORMATION_WITH_SPECIFIED_SOURCE('','',#389,
 .NOT_KNOWN.);
#388=PRODUCT_RELATED_PRODUCT_CATEGORY('','',(#389));
#389=PRODUCT('Side 2','Side 2','Side 2',(#391));
#390=PRODUCT_CATEGORY('','');
#391=PRODUCT_CONTEXT('',#393,'mechanical');
#392=APPLICATION_PROTOCOL_DEFINITION('international standard',
'ap242_managed_model_based_3d_engineering',2011,#393);
#393=APPLICATION_CONTEXT('managed model based 3d engineering');
ENDSEC;
END-ISO-10303-21;
